ISO-10303-21;
HEADER;
FILE_DESCRIPTION (( 'STEP AP203' ),
    '1' );
FILE_NAME ('N-SF1-BPBSC-12.7-620-1000.STEP',
    '2021-01-05T02:14:07',
    ( '' ),
    ( '' ),
    'SwSTEP 2.0',
    'SolidWorks 2020',
    '' );
FILE_SCHEMA (( 'CONFIG_CONTROL_DESIGN' ));
ENDSEC;

DATA;
#1 = VECTOR ( 'NONE', #231, 1000.000000000000000 ) ;
#2 = CARTESIAN_POINT ( 'NONE',  ( -6.349999999999999645, -6.350000000000000533, 6.349999999999999645 ) ) ;
#3 = LINE ( 'NONE', #248, #41 ) ;
#4 = ORIENTED_EDGE ( 'NONE', *, *, #243, .T. ) ;
#5 = CARTESIAN_POINT ( 'NONE',  ( -6.349999999999998757, -6.349999999999997868, 6.349999999999999645 ) ) ;
#6 = CC_DESIGN_SECURITY_CLASSIFICATION ( #47, ( #224 ) ) ;
#7 = FACE_OUTER_BOUND ( 'NONE', #9, .T. ) ;
#8 = ADVANCED_FACE ( 'NONE', ( #291 ), #179, .F. ) ;
#9 = EDGE_LOOP ( 'NONE', ( #77, #238, #308 ) ) ;
#10 = EDGE_LOOP ( 'NONE', ( #316, #32, #86, #36 ) ) ;
#11 = SHAPE_DEFINITION_REPRESENTATION ( #194, #217 ) ;
#12 = DIRECTION ( 'NONE',  ( 1.000000000000000000, 0.000000000000000000, 0.000000000000000000 ) ) ;
#13 = APPLICATION_CONTEXT ( 'configuration controlled 3d designs of mechanical parts and assemblies' ) ;
#14 = ORIENTED_EDGE ( 'NONE', *, *, #191, .T. ) ;
#15 = CALENDAR_DATE ( 2021, 5, 1 ) ;
#16 = PERSON_AND_ORGANIZATION_ROLE ( 'design_owner' ) ;
#17 = EDGE_CURVE ( 'NONE', #221, #24, #63, .T. ) ;
#18 = CARTESIAN_POINT ( 'NONE',  ( 6.349999999999996980, 6.349999999999996980, -6.349999999999999645 ) ) ;
#19 = APPROVAL_ROLE ( '' ) ;
#20 = VERTEX_POINT ( 'NONE', #153 ) ;
#21 = PERSON_AND_ORGANIZATION_ROLE ( 'classification_officer' ) ;
#22 = LINE ( 'NONE', #58, #164 ) ;
#23 = COORDINATED_UNIVERSAL_TIME_OFFSET ( 8, 0, .AHEAD. ) ;
#24 = VERTEX_POINT ( 'NONE', #261 ) ;
#25 = PERSON_AND_ORGANIZATION ( #133, #95 ) ;
#26 = EDGE_CURVE ( 'NONE', #300, #20, #233, .T. ) ;
#27 = VECTOR ( 'NONE', #123, 1000.000000000000000 ) ;
#28 = FACE_OUTER_BOUND ( 'NONE', #143, .T. ) ;
#29 = ORIENTED_EDGE ( 'NONE', *, *, #119, .F. ) ;
#30 = CARTESIAN_POINT ( 'NONE',  ( -6.349999999999999645, -6.350000000000000533, 6.349999999999999645 ) ) ;
#31 = FACE_OUTER_BOUND ( 'NONE', #99, .T. ) ;
#32 = ORIENTED_EDGE ( 'NONE', *, *, #243, .F. ) ;
#33 = CARTESIAN_POINT ( 'NONE',  ( -6.349999999999998757, -6.349999999999997868, -6.349999999999999645 ) ) ;
#34 = MANIFOLD_SOLID_BREP ( '¾µÏ', #52 ) ;
#35 = FACE_OUTER_BOUND ( 'NONE', #107, .T. ) ;
#36 = ORIENTED_EDGE ( 'NONE', *, *, #319, .T. ) ;
#37 = CARTESIAN_POINT ( 'NONE',  ( -6.349999999999998757, -6.349999999999997868, -6.349999999999999645 ) ) ;
#38 = DIRECTION ( 'NONE',  ( 1.000000000000000000, 0.000000000000000000, 0.000000000000000000 ) ) ;
#39 = CARTESIAN_POINT ( 'NONE',  ( 6.349999999999998757, 6.349999999999998757, -6.349999999999999645 ) ) ;
#40 = CARTESIAN_POINT ( 'NONE',  ( -6.350000000000002309, 6.350000000000001421, 6.349999999999999645 ) ) ;
#41 = VECTOR ( 'NONE', #297, 999.9999999999998863 ) ;
#42 = CARTESIAN_POINT ( 'NONE',  ( 6.349999999999996980, 6.349999999999996980, 6.349999999999999645 ) ) ;
#43 = LINE ( 'NONE', #256, #49 ) ;
#44 = CALENDAR_DATE ( 2021, 5, 1 ) ;
#45 = VERTEX_POINT ( 'NONE', #42 ) ;
#46 = EDGE_CURVE ( 'NONE', #110, #306, #130, .T. ) ;
#47 = SECURITY_CLASSIFICATION ( '', '', #108 ) ;
#48 = ADVANCED_FACE ( 'NONE', ( #165 ), #142, .F. ) ;
#49 = VECTOR ( 'NONE', #183, 1000.000000000000000 ) ;
#50 = DIRECTION ( 'NONE',  ( 0.000000000000000000, 0.000000000000000000, 1.000000000000000000 ) ) ;
#51 = LINE ( 'NONE', #251, #254 ) ;
#52 = CLOSED_SHELL ( 'NONE', ( #321, #72, #8, #219, #48 ) ) ;
#53 = CARTESIAN_POINT ( 'NONE',  ( 6.349999999999996980, 6.349999999999996980, 6.349999999999999645 ) ) ;
#54 = ORIENTED_EDGE ( 'NONE', *, *, #187, .T. ) ;
#55 = LINE ( 'NONE', #195, #242 ) ;
#56 = EDGE_CURVE ( 'NONE', #305, #45, #200, .T. ) ;
#57 = PERSON_AND_ORGANIZATION ( #133, #95 ) ;
#58 = CARTESIAN_POINT ( 'NONE',  ( 6.349999999999998757, 6.349999999999998757, 6.349999999999999645 ) ) ;
#59 = VECTOR ( 'NONE', #169, 1000.000000000000114 ) ;
#60 = ORIENTED_EDGE ( 'NONE', *, *, #26, .T. ) ;
#61 = CARTESIAN_POINT ( 'NONE',  ( 6.349999999999998757, 6.349999999999998757, 6.349999999999999645 ) ) ;
#62 = APPLICATION_CONTEXT ( 'configuration controlled 3d designs of mechanical parts and assemblies' ) ;
#63 = LINE ( 'NONE', #39, #127 ) ;
#64 = DIRECTION ( 'NONE',  ( -0.7071067811865474617, -0.7071067811865474617, 0.000000000000000000 ) ) ;
#65 = DATE_AND_TIME ( #44, #284 ) ;
#66 = ORIENTED_EDGE ( 'NONE', *, *, #192, .T. ) ;
#67 = DIRECTION ( 'NONE',  ( -0.000000000000000000, -0.000000000000000000, -1.000000000000000000 ) ) ;
#68 = APPLICATION_PROTOCOL_DEFINITION ( 'international standard', 'config_control_design', 1994, #62 ) ;
#69 = VECTOR ( 'NONE', #264, 1000.000000000000000 ) ;
#70 = DIRECTION ( 'NONE',  ( -2.903408047666378392E-16, -1.000000000000000000, 0.000000000000000000 ) ) ;
#71 = DIRECTION ( 'NONE',  ( -0.000000000000000000, 0.000000000000000000, 1.000000000000000000 ) ) ;
#72 = ADVANCED_FACE ( 'NONE', ( #274 ), #247, .F. ) ;
#73 = PLANE ( 'NONE',  #245 ) ;
#74 = EDGE_LOOP ( 'NONE', ( #66, #286, #60 ) ) ;
#75 = DIRECTION ( 'NONE',  ( -0.7071067811865475727, -0.7071067811865475727, 0.000000000000000000 ) ) ;
#76 = APPROVAL_PERSON_ORGANIZATION ( #265, #170, #149 ) ;
#77 = ORIENTED_EDGE ( 'NONE', *, *, #213, .F. ) ;
#78 = LINE ( 'NONE', #33, #161 ) ;
#79 = COORDINATED_UNIVERSAL_TIME_OFFSET ( 8, 0, .AHEAD. ) ;
#80 = DIRECTION ( 'NONE',  ( 1.000000000000000000, 0.000000000000000000, 0.000000000000000000 ) ) ;
#81 = ORIENTED_EDGE ( 'NONE', *, *, #162, .F. ) ;
#82 = CARTESIAN_POINT ( 'NONE',  ( 6.349999999999996980, 6.349999999999996980, 6.349999999999999645 ) ) ;
#83 = ORIENTED_EDGE ( 'NONE', *, *, #319, .F. ) ;
#84 = CARTESIAN_POINT ( 'NONE',  ( 6.349999999999999645, -6.350000000000000533, 6.349999999999999645 ) ) ;
#85 = PERSON_AND_ORGANIZATION ( #133, #95 ) ;
#86 = ORIENTED_EDGE ( 'NONE', *, *, #313, .F. ) ;
#87 =( LENGTH_UNIT ( ) NAMED_UNIT ( * ) SI_UNIT ( .MILLI., .METRE. ) );
#88 = COORDINATED_UNIVERSAL_TIME_OFFSET ( 8, 0, .AHEAD. ) ;
#89 = ORIENTED_EDGE ( 'NONE', *, *, #273, .T. ) ;
#90 = PRODUCT_DEFINITION ( 'UNKNOWN', '', #224, #158 ) ;
#91 = PERSON_AND_ORGANIZATION ( #133, #95 ) ;
#92 = AXIS2_PLACEMENT_3D ( 'NONE', #61, #283, #152 ) ;
#93 =( NAMED_UNIT ( * ) PLANE_ANGLE_UNIT ( ) SI_UNIT ( $, .RADIAN. ) );
#94 = VECTOR ( 'NONE', #202, 1000.000000000000000 ) ;
#95 = ORGANIZATION ( 'UNSPECIFIED', 'UNSPECIFIED', '' ) ;
#96 = DIRECTION ( 'NONE',  ( -2.220446049250312588E-16, 1.000000000000000000, 0.000000000000000000 ) ) ;
#97 = ORIENTED_EDGE ( 'NONE', *, *, #46, .T. ) ;
#98 = CARTESIAN_POINT ( 'NONE',  ( 6.349999999999996980, 6.349999999999996980, 6.349999999999999645 ) ) ;
#99 = EDGE_LOOP ( 'NONE', ( #201, #132, #258, #4 ) ) ;
#100 = EDGE_CURVE ( 'NONE', #24, #174, #166, .T. ) ;
#101 = VECTOR ( 'NONE', #67, 1000.000000000000000 ) ;
#102 = DIRECTION ( 'NONE',  ( 0.000000000000000000, 0.000000000000000000, 1.000000000000000000 ) ) ;
#103 = ORIENTED_EDGE ( 'NONE', *, *, #313, .T. ) ;
#104 = CC_DESIGN_DATE_AND_TIME_ASSIGNMENT ( #234, #287, ( #47 ) ) ;
#105 = EDGE_LOOP ( 'NONE', ( #29, #81, #122, #54 ) ) ;
#106 = CARTESIAN_POINT ( 'NONE',  ( -6.350000000000002309, 6.350000000000001421, -6.349999999999999645 ) ) ;
#107 = EDGE_LOOP ( 'NONE', ( #257, #83, #269, #89 ) ) ;
#108 = SECURITY_CLASSIFICATION_LEVEL ( 'unclassified' ) ;
#109 = CARTESIAN_POINT ( 'NONE',  ( 6.349999999999998757, 6.349999999999998757, 6.349999999999999645 ) ) ;
#110 = VERTEX_POINT ( 'NONE', #140 ) ;
#111 = APPLICATION_PROTOCOL_DEFINITION ( 'international standard', 'config_control_design', 1994, #13 ) ;
#112 = LINE ( 'NONE', #209, #27 ) ;
#113 = CALENDAR_DATE ( 2021, 5, 1 ) ;
#114 = ORIENTED_EDGE ( 'NONE', *, *, #263, .T. ) ;
#115 = VECTOR ( 'NONE', #136, 1000.000000000000000 ) ;
#116 = APPROVAL_PERSON_ORGANIZATION ( #315, #215, #156 ) ;
#117 = CARTESIAN_POINT ( 'NONE',  ( 0.000000000000000000, 0.000000000000000000, -6.349999999999999645 ) ) ;
#118 = DIRECTION ( 'NONE',  ( -2.220446049250312588E-16, 1.000000000000000000, 0.000000000000000000 ) ) ;
#119 = EDGE_CURVE ( 'NONE', #241, #300, #78, .T. ) ;
#120 = LINE ( 'NONE', #5, #115 ) ;
#121 = CC_DESIGN_APPROVAL ( #170, ( #47 ) ) ;
#122 = ORIENTED_EDGE ( 'NONE', *, *, #252, .T. ) ;
#123 = DIRECTION ( 'NONE',  ( -2.220446049250312588E-16, 1.000000000000000000, 0.000000000000000000 ) ) ;
#124 = MECHANICAL_CONTEXT ( 'NONE', #13, 'mechanical' ) ;
#125 = VERTEX_POINT ( 'NONE', #226 ) ;
#126 = FACE_OUTER_BOUND ( 'NONE', #139, .T. ) ;
#127 = VECTOR ( 'NONE', #151, 1000.000000000000000 ) ;
#128 = PERSON_AND_ORGANIZATION ( #133, #95 ) ;
#129 = CC_DESIGN_PERSON_AND_ORGANIZATION_ASSIGNMENT ( #57, #21, ( #47 ) ) ;
#130 = LINE ( 'NONE', #184, #155 ) ;
#131 = LINE ( 'NONE', #309, #94 ) ;
#132 = ORIENTED_EDGE ( 'NONE', *, *, #273, .F. ) ;
#133 = PERSON ( 'UNSPECIFIED', 'UNSPECIFIED', 'UNSPECIFIED', ('UNSPECIFIED'), ('UNSPECIFIED'), ('UNSPECIFIED') ) ;
#134 = APPROVAL_PERSON_ORGANIZATION ( #128, #281, #19 ) ;
#135 = CC_DESIGN_PERSON_AND_ORGANIZATION_ASSIGNMENT ( #225, #303, ( #224 ) ) ;
#136 = DIRECTION ( 'NONE',  ( 0.000000000000000000, 0.000000000000000000, -1.000000000000000000 ) ) ;
#137 = CLOSED_SHELL ( 'NONE', ( #289, #189, #250, #246, #144 ) ) ;
#138 = CARTESIAN_POINT ( 'NONE',  ( -6.349999999999998757, -6.349999999999997868, 6.349999999999999645 ) ) ;
#139 = EDGE_LOOP ( 'NONE', ( #141, #197, #227, #298 ) ) ;
#140 = CARTESIAN_POINT ( 'NONE',  ( 6.349999999999999645, -6.350000000000000533, 6.349999999999999645 ) ) ;
#141 = ORIENTED_EDGE ( 'NONE', *, *, #192, .F. ) ;
#142 = PLANE ( 'NONE',  #205 ) ;
#143 = EDGE_LOOP ( 'NONE', ( #208, #311, #249 ) ) ;
#144 = ADVANCED_FACE ( 'NONE', ( #28 ), #275, .F. ) ;
#145 = APPROVAL_DATE_TIME ( #176, #170 ) ;
#146 = CARTESIAN_POINT ( 'NONE',  ( 6.349999999999999645, -6.350000000000000533, -6.349999999999999645 ) ) ;
#147 = AXIS2_PLACEMENT_3D ( 'NONE', #199, #280, #317 ) ;
#148 = EDGE_LOOP ( 'NONE', ( #103, #114, #97 ) ) ;
#149 = APPROVAL_ROLE ( '' ) ;
#150 = CARTESIAN_POINT ( 'NONE',  ( 6.349999999999998757, 6.349999999999998757, 6.349999999999999645 ) ) ;
#151 = DIRECTION ( 'NONE',  ( -6.829619984160658046E-17, 1.000000000000000000, -0.000000000000000000 ) ) ;
#152 = DIRECTION ( 'NONE',  ( 6.829619984160658046E-17, -1.000000000000000000, 0.000000000000000000 ) ) ;
#153 = CARTESIAN_POINT ( 'NONE',  ( 6.349999999999996980, 6.349999999999996980, -6.349999999999999645 ) ) ;
#154 = DIRECTION ( 'NONE',  ( -0.000000000000000000, 0.000000000000000000, 1.000000000000000000 ) ) ;
#155 = VECTOR ( 'NONE', #293, 1000.000000000000000 ) ;
#156 = APPROVAL_ROLE ( '' ) ;
#157 = LINE ( 'NONE', #84, #1 ) ;
#158 = DESIGN_CONTEXT ( 'detailed design', #62, 'design' ) ;
#159 = DIRECTION ( 'NONE',  ( 0.000000000000000000, 0.000000000000000000, 1.000000000000000000 ) ) ;
#160 = CC_DESIGN_PERSON_AND_ORGANIZATION_ASSIGNMENT ( #25, #16, ( #163 ) ) ;
#161 = VECTOR ( 'NONE', #96, 1000.000000000000000 ) ;
#162 = EDGE_CURVE ( 'NONE', #125, #241, #120, .T. ) ;
#163 = PRODUCT ( 'N-SF1-BPBSC-12.7-620-1000', 'N-SF1-BPBSC-12.7-620-1000', '', ( #124 ) ) ;
#164 = VECTOR ( 'NONE', #64, 1000.000000000000114 ) ;
#165 = FACE_OUTER_BOUND ( 'NONE', #74, .T. ) ;
#166 = LINE ( 'NONE', #304, #59 ) ;
#167 = LOCAL_TIME ( 10, 14, 7.000000000000000000, #88 ) ;
#168 = DIRECTION ( 'NONE',  ( 0.000000000000000000, -0.000000000000000000, 1.000000000000000000 ) ) ;
#169 = DIRECTION ( 'NONE',  ( -0.7071067811865474617, -0.7071067811865474617, 0.000000000000000000 ) ) ;
#170 = APPROVAL ( #282, 'UNSPECIFIED' ) ;
#171 = CALENDAR_DATE ( 2021, 5, 1 ) ;
#172 = FACE_OUTER_BOUND ( 'NONE', #10, .T. ) ;
#173 = CARTESIAN_POINT ( 'NONE',  ( -6.349999999999999645, -6.350000000000000533, -6.349999999999999645 ) ) ;
#174 = VERTEX_POINT ( 'NONE', #173 ) ;
#175 = DIRECTION ( 'NONE',  ( -1.000000000000000000, 2.903408047666378392E-16, 0.000000000000000000 ) ) ;
#176 = DATE_AND_TIME ( #15, #301 ) ;
#177 = PLANE ( 'NONE',  #271 ) ;
#178 = LOCAL_TIME ( 10, 14, 7.000000000000000000, #23 ) ;
#179 = PLANE ( 'NONE',  #236 ) ;
#180 = DIRECTION ( 'NONE',  ( 0.7071067811865474617, 0.7071067811865474617, 0.000000000000000000 ) ) ;
#181 = CALENDAR_DATE ( 2021, 5, 1 ) ;
#182 = EDGE_LOOP ( 'NONE', ( #207, #230, #211, #14 ) ) ;
#183 = DIRECTION ( 'NONE',  ( -0.000000000000000000, -0.000000000000000000, -1.000000000000000000 ) ) ;
#184 = CARTESIAN_POINT ( 'NONE',  ( 6.349999999999998757, 6.349999999999998757, 6.349999999999999645 ) ) ;
#185 = DIRECTION ( 'NONE',  ( 1.000000000000000000, 0.000000000000000000, 0.000000000000000000 ) ) ;
#186 =( GEOMETRIC_REPRESENTATION_CONTEXT ( 3 ) GLOBAL_UNCERTAINTY_ASSIGNED_CONTEXT ( ( #279 ) ) GLOBAL_UNIT_ASSIGNED_CONTEXT ( ( #87, #93, #232 ) ) REPRESENTATION_CONTEXT ( 'NONE', 'WORKASPACE' ) );
#187 = EDGE_CURVE ( 'NONE', #305, #300, #51, .T. ) ;
#188 = PERSON_AND_ORGANIZATION_ROLE ( 'creator' ) ;
#189 = ADVANCED_FACE ( 'NONE', ( #31 ), #73, .F. ) ;
#190 = AXIS2_PLACEMENT_3D ( 'NONE', #138, #223, #50 ) ;
#191 = EDGE_CURVE ( 'NONE', #45, #20, #55, .T. ) ;
#192 = EDGE_CURVE ( 'NONE', #20, #241, #3, .T. ) ;
#193 = VECTOR ( 'NONE', #253, 1000.000000000000000 ) ;
#194 = PRODUCT_DEFINITION_SHAPE ( 'NONE', 'NONE',  #90 ) ;
#195 = CARTESIAN_POINT ( 'NONE',  ( 6.349999999999996980, 6.349999999999996980, 6.349999999999999645 ) ) ;
#196 = DIRECTION ( 'NONE',  ( 0.000000000000000000, 0.000000000000000000, -1.000000000000000000 ) ) ;
#197 = ORIENTED_EDGE ( 'NONE', *, *, #191, .F. ) ;
#198 = AXIS2_PLACEMENT_3D ( 'NONE', #314, #259, #235 ) ;
#199 = CARTESIAN_POINT ( 'NONE',  ( 0.000000000000000000, 0.000000000000000000, 6.349999999999999645 ) ) ;
#200 = LINE ( 'NONE', #53, #193 ) ;
#201 = ORIENTED_EDGE ( 'NONE', *, *, #229, .T. ) ;
#202 = DIRECTION ( 'NONE',  ( 1.000000000000000000, 0.000000000000000000, 0.000000000000000000 ) ) ;
#203 = VERTEX_POINT ( 'NONE', #30 ) ;
#204 = FACE_OUTER_BOUND ( 'NONE', #148, .T. ) ;
#205 = AXIS2_PLACEMENT_3D ( 'NONE', #302, #102, #118 ) ;
#206 = DATE_AND_TIME ( #181, #167 ) ;
#207 = ORIENTED_EDGE ( 'NONE', *, *, #26, .F. ) ;
#208 = ORIENTED_EDGE ( 'NONE', *, *, #100, .F. ) ;
#209 = CARTESIAN_POINT ( 'NONE',  ( -6.349999999999998757, -6.349999999999997868, 6.349999999999999645 ) ) ;
#210 = DATE_AND_TIME ( #113, #178 ) ;
#211 = ORIENTED_EDGE ( 'NONE', *, *, #56, .T. ) ;
#212 = APPROVAL_STATUS ( 'not_yet_approved' ) ;
#213 = EDGE_CURVE ( 'NONE', #45, #125, #220, .T. ) ;
#214 = CC_DESIGN_APPROVAL ( #281, ( #224 ) ) ;
#215 = APPROVAL ( #212, 'UNSPECIFIED' ) ;
#216 = LOCAL_TIME ( 10, 14, 7.000000000000000000, #79 ) ;
#217 = ADVANCED_BREP_SHAPE_REPRESENTATION ( 'N-SF1-BPBSC-12.7-620-1000', ( #244, #34, #320 ), #186 ) ;
#218 = DIRECTION ( 'NONE',  ( 0.000000000000000000, 0.000000000000000000, -1.000000000000000000 ) ) ;
#219 = ADVANCED_FACE ( 'NONE', ( #7 ), #278, .T. ) ;
#220 = LINE ( 'NONE', #98, #296 ) ;
#221 = VERTEX_POINT ( 'NONE', #146 ) ;
#222 = PRODUCT_RELATED_PRODUCT_CATEGORY ( 'detail', '', ( #163 ) ) ;
#223 = DIRECTION ( 'NONE',  ( 1.000000000000000000, -2.220446049250312588E-16, 0.000000000000000000 ) ) ;
#224 = PRODUCT_DEFINITION_FORMATION_WITH_SPECIFIED_SOURCE ( 'ANY', '', #163, .NOT_KNOWN. ) ;
#225 = PERSON_AND_ORGANIZATION ( #133, #95 ) ;
#226 = CARTESIAN_POINT ( 'NONE',  ( -6.349999999999998757, -6.349999999999997868, 6.349999999999999645 ) ) ;
#227 = ORIENTED_EDGE ( 'NONE', *, *, #213, .T. ) ;
#228 = PLANE ( 'NONE',  #277 ) ;
#229 = EDGE_CURVE ( 'NONE', #174, #221, #131, .T. ) ;
#230 = ORIENTED_EDGE ( 'NONE', *, *, #187, .F. ) ;
#231 = DIRECTION ( 'NONE',  ( -0.000000000000000000, -0.000000000000000000, -1.000000000000000000 ) ) ;
#232 =( NAMED_UNIT ( * ) SI_UNIT ( $, .STERADIAN. ) SOLID_ANGLE_UNIT ( ) );
#233 = LINE ( 'NONE', #18, #69 ) ;
#234 = DATE_AND_TIME ( #171, #216 ) ;
#235 = DIRECTION ( 'NONE',  ( 0.7071067811865475727, 0.7071067811865475727, 0.000000000000000000 ) ) ;
#236 = AXIS2_PLACEMENT_3D ( 'NONE', #82, #70, #175 ) ;
#237 = APPROVAL_STATUS ( 'not_yet_approved' ) ;
#238 = ORIENTED_EDGE ( 'NONE', *, *, #56, .F. ) ;
#239 = CARTESIAN_POINT ( 'NONE',  ( -6.349999999999999645, -6.350000000000000533, 6.349999999999999645 ) ) ;
#240 = DATE_TIME_ROLE ( 'creation_date' ) ;
#241 = VERTEX_POINT ( 'NONE', #37 ) ;
#242 = VECTOR ( 'NONE', #196, 1000.000000000000000 ) ;
#243 = EDGE_CURVE ( 'NONE', #203, #174, #288, .T. ) ;
#244 = MANIFOLD_SOLID_BREP ( 'Í¹Ì¨-À', #137 ) ;
#245 = AXIS2_PLACEMENT_3D ( 'NONE', #2, #299, #168 ) ;
#246 = ADVANCED_FACE ( 'NONE', ( #204 ), #228, .T. ) ;
#247 = PLANE ( 'NONE',  #190 ) ;
#248 = CARTESIAN_POINT ( 'NONE',  ( 6.349999999999996980, 6.349999999999996980, -6.349999999999999645 ) ) ;
#249 = ORIENTED_EDGE ( 'NONE', *, *, #229, .F. ) ;
#250 = ADVANCED_FACE ( 'NONE', ( #35 ), #307, .F. ) ;
#251 = CARTESIAN_POINT ( 'NONE',  ( -6.350000000000002309, 6.350000000000001421, 6.349999999999999645 ) ) ;
#252 = EDGE_CURVE ( 'NONE', #125, #305, #112, .T. ) ;
#253 = DIRECTION ( 'NONE',  ( 1.000000000000000000, -2.903408047666378392E-16, 0.000000000000000000 ) ) ;
#254 = VECTOR ( 'NONE', #218, 1000.000000000000000 ) ;
#255 = CC_DESIGN_PERSON_AND_ORGANIZATION_ASSIGNMENT ( #91, #188, ( #224 ) ) ;
#256 = CARTESIAN_POINT ( 'NONE',  ( 6.349999999999998757, 6.349999999999998757, 6.349999999999999645 ) ) ;
#257 = ORIENTED_EDGE ( 'NONE', *, *, #17, .T. ) ;
#258 = ORIENTED_EDGE ( 'NONE', *, *, #263, .F. ) ;
#259 = DIRECTION ( 'NONE',  ( -0.7071067811865475727, 0.7071067811865475727, 0.000000000000000000 ) ) ;
#260 = CARTESIAN_POINT ( 'NONE',  ( 0.000000000000000000, 0.000000000000000000, 0.000000000000000000 ) ) ;
#261 = CARTESIAN_POINT ( 'NONE',  ( 6.349999999999998757, 6.349999999999998757, -6.349999999999999645 ) ) ;
#262 = DIRECTION ( 'NONE',  ( 0.7071067811865475727, -0.7071067811865475727, 0.000000000000000000 ) ) ;
#263 = EDGE_CURVE ( 'NONE', #203, #110, #292, .T. ) ;
#264 = DIRECTION ( 'NONE',  ( 1.000000000000000000, -2.903408047666378392E-16, 0.000000000000000000 ) ) ;
#265 = PERSON_AND_ORGANIZATION ( #133, #95 ) ;
#266 = CARTESIAN_POINT ( 'NONE',  ( -6.349999999999999645, -6.350000000000000533, 6.349999999999999645 ) ) ;
#267 = VECTOR ( 'NONE', #12, 1000.000000000000000 ) ;
#268 = PERSON_AND_ORGANIZATION_ROLE ( 'creator' ) ;
#269 = ORIENTED_EDGE ( 'NONE', *, *, #46, .F. ) ;
#270 = CC_DESIGN_DATE_AND_TIME_ASSIGNMENT ( #65, #240, ( #90 ) ) ;
#271 = AXIS2_PLACEMENT_3D ( 'NONE', #109, #262, #180 ) ;
#272 = CC_DESIGN_APPROVAL ( #215, ( #90 ) ) ;
#273 = EDGE_CURVE ( 'NONE', #110, #221, #157, .T. ) ;
#274 = FACE_OUTER_BOUND ( 'NONE', #105, .T. ) ;
#275 = PLANE ( 'NONE',  #295 ) ;
#276 = CC_DESIGN_PERSON_AND_ORGANIZATION_ASSIGNMENT ( #85, #268, ( #90 ) ) ;
#277 = AXIS2_PLACEMENT_3D ( 'NONE', #294, #154, #185 ) ;
#278 = PLANE ( 'NONE',  #147 ) ;
#279 = UNCERTAINTY_MEASURE_WITH_UNIT (LENGTH_MEASURE( 1.000000000000000082E-05 ), #87, 'distance_accuracy_value', 'NONE');
#280 = DIRECTION ( 'NONE',  ( 0.000000000000000000, 0.000000000000000000, 1.000000000000000000 ) ) ;
#281 = APPROVAL ( #237, 'UNSPECIFIED' ) ;
#282 = APPROVAL_STATUS ( 'not_yet_approved' ) ;
#283 = DIRECTION ( 'NONE',  ( -1.000000000000000000, -6.829619984160658046E-17, 0.000000000000000000 ) ) ;
#284 = LOCAL_TIME ( 10, 14, 7.000000000000000000, #290 ) ;
#285 = PLANE ( 'NONE',  #198 ) ;
#286 = ORIENTED_EDGE ( 'NONE', *, *, #119, .T. ) ;
#287 = DATE_TIME_ROLE ( 'classification_date' ) ;
#288 = LINE ( 'NONE', #266, #101 ) ;
#289 = ADVANCED_FACE ( 'NONE', ( #172 ), #177, .F. ) ;
#290 = COORDINATED_UNIVERSAL_TIME_OFFSET ( 8, 0, .AHEAD. ) ;
#291 = FACE_OUTER_BOUND ( 'NONE', #182, .T. ) ;
#292 = LINE ( 'NONE', #239, #267 ) ;
#293 = DIRECTION ( 'NONE',  ( -6.829619984160658046E-17, 1.000000000000000000, -0.000000000000000000 ) ) ;
#294 = CARTESIAN_POINT ( 'NONE',  ( 0.000000000000000000, 0.000000000000000000, 6.349999999999999645 ) ) ;
#295 = AXIS2_PLACEMENT_3D ( 'NONE', #117, #71, #80 ) ;
#296 = VECTOR ( 'NONE', #75, 999.9999999999998863 ) ;
#297 = DIRECTION ( 'NONE',  ( -0.7071067811865475727, -0.7071067811865475727, 0.000000000000000000 ) ) ;
#298 = ORIENTED_EDGE ( 'NONE', *, *, #162, .T. ) ;
#299 = DIRECTION ( 'NONE',  ( 0.000000000000000000, 1.000000000000000000, 0.000000000000000000 ) ) ;
#300 = VERTEX_POINT ( 'NONE', #106 ) ;
#301 = LOCAL_TIME ( 10, 14, 7.000000000000000000, #312 ) ;
#302 = CARTESIAN_POINT ( 'NONE',  ( 0.000000000000000000, 0.000000000000000000, -6.349999999999999645 ) ) ;
#303 = PERSON_AND_ORGANIZATION_ROLE ( 'design_supplier' ) ;
#304 = CARTESIAN_POINT ( 'NONE',  ( 6.349999999999998757, 6.349999999999998757, -6.349999999999999645 ) ) ;
#305 = VERTEX_POINT ( 'NONE', #40 ) ;
#306 = VERTEX_POINT ( 'NONE', #150 ) ;
#307 = PLANE ( 'NONE',  #92 ) ;
#308 = ORIENTED_EDGE ( 'NONE', *, *, #252, .F. ) ;
#309 = CARTESIAN_POINT ( 'NONE',  ( -6.349999999999999645, -6.350000000000000533, -6.349999999999999645 ) ) ;
#310 = APPROVAL_DATE_TIME ( #206, #215 ) ;
#311 = ORIENTED_EDGE ( 'NONE', *, *, #17, .F. ) ;
#312 = COORDINATED_UNIVERSAL_TIME_OFFSET ( 8, 0, .AHEAD. ) ;
#313 = EDGE_CURVE ( 'NONE', #306, #203, #22, .T. ) ;
#314 = CARTESIAN_POINT ( 'NONE',  ( 6.349999999999996980, 6.349999999999996980, 6.349999999999999645 ) ) ;
#315 = PERSON_AND_ORGANIZATION ( #133, #95 ) ;
#316 = ORIENTED_EDGE ( 'NONE', *, *, #100, .T. ) ;
#317 = DIRECTION ( 'NONE',  ( -2.220446049250312588E-16, 1.000000000000000000, 0.000000000000000000 ) ) ;
#318 = APPROVAL_DATE_TIME ( #210, #281 ) ;
#319 = EDGE_CURVE ( 'NONE', #306, #24, #43, .T. ) ;
#320 = AXIS2_PLACEMENT_3D ( 'NONE', #260, #159, #38 ) ;
#321 = ADVANCED_FACE ( 'NONE', ( #126 ), #285, .F. ) ;
ENDSEC;
END-ISO-10303-21;
